Solfeggietto by Carl Philipp Emanuel Bach

Arranged for guitar by Nick Jameson.

Click here for a video of Nick trying to play it.


    4   1   4   3   1   4   3   1   1   2   1   1   1   4   2   1   2   4   2   1   3   2   1   1   3   1   1   3   1   4   2   1
e|---------------------------------------------------------------|---------------------------------------------------------------|
B|---------------------------------------------------------------|---------------------13--12--10--12--10---9--------------------|
G|--------------------------------------------------9------------|--------------9--14--------------------------11---9------------|
D|------------------7--10---9---7---6-------6---9------12--10---9|-10------10------------------------------------------12--10---9|
A|--------------7-----------------------7------------------------|-----12--------------------------------------------------------|
E|--8---5---8----------------------------------------------------|---------------------------------------------------------------|


    2   4   2   1   3   2   1   3   2   3   2   1   3   1   3   2   1   2   1   1   1   3   2   1   2   1   3   2   1   2   1   1
e|---------------------------------------------------------------|-----------------17--20--19--17--19--17------------------------|
B|---------------------13--12------------------12--17--15--------|-------------17--------------------------21--19--17------------|
G|--------------9--14----------14--13------13--------------17--16|-17------17------------------------------------------19--17--16|
D|-10------10--------------------------14------------------------|-----19--------------------------------------------------------|
A|-----12--------------------------------------------------------|---------------------------------------------------------------|
E|---------------------------------------------------------------|---------------------------------------------------------------|


    2   3   1   2   1   4   1   2   2       2   1   3   2   1   2   1   2   1   1   2   1   1   2   3   2   1   2   2   1   1   1
e|---------------------17--12------13-----------------------5---8|--7------------------15----------------------------------------|
B|-----------------------------13-----------------------6--------|------8------------------15------17--------------------------12|
G|-17-------------------------------------------2---7------------|----------7---4--------------16-----------------------9--12----|
D|-----19--14---------------------------0---3--------------------|------------------5------------------------------10------------|
A|-------------15--12--------------------------------------------|------------------------------------------7--10----------------|
E|---------------------------------------------------------------|--------------------------------------8------------------------|


    3   2   1   2   1   2   1   2   1   2   1   3   1   2   1   3   4   2   3   1   4   1   3   1   2   1   3   1   4   1   2   1
e|----------------------------------8---------------8------------|-----------------14--------------11----------------------------|
B|-----------------10------------------10--------------10--------|-12--10--------------10--------------10-------7--10---7--------|
G|-14--11--10--11------11--10--11-----------9--11-----------9--11|-------------11--------------11---------------------------8----|
D|---------------------------------------------------------------|---------13--------------13---------------9-------------------7|
A|---------------------------------------------------------------|---------------------------------------------------------------|
E|---------------------------------------------------------------|---------------------------------------------------------------|


    3       2   1   1   4   3   1   1   2   1   1   1   4   2   1   2   4   2   1   3   2   1   1   3   1   1   3   1   4   2   1
e|---------------------------------------------------------------|---------------------------------------------------------------|
B|--8------------------------------------------------------------|----------------------8---7---5---7---5---4--------------------|
G|--------------------------------------------------4------------|--------------4---9---------------------------6---4------------|
D|------------------2---5---4---2---1-------1---4-------7---5---4|--5-------5-------------------------------------------7---5---4|
A|--------------2-----------------------2------------------------|------7--------------------------------------------------------|
E|------0---3----------------------------------------------------|---------------------------------------------------------------|


    2   4   2   1   3   2   1   3   2   3   2   1   3   1   3   2   1   3   1   1   1   3   2   1   2   1   4   2   1   2   1   4
e|---------------------------------------------------------------|-----------------12--15--14--12--14--12------------------------|
B|----------------------8---7-------------------7--12--10--------|-------------12--------------------------16--14--12------------|
G|--------------4---9-----------9---8-------8--------------12--11|-12------12------------------------------------------14--12----|
D|--5-------5---------------------------9------------------------|-----14------------------------------------------------------16|
A|------7--------------------------------------------------------|---------------------------------------------------------------|
E|---------------------------------------------------------------|---------------------------------------------------------------|


    1   3   1   1   2   1   1   3       2   1   1   2   1   1   2   1       3       1       3       1       2       1       2
e|---------------------------------------------------------------|------0--12---0-------0--12---0-------0--10---0-------0--10---0|
B|-----------------17------------------17----------------------17|-10--------------10---------------9---------------9------------|
G|-12------12--16------16--12--------------16--13------13--16----|---------------------------------------------------------------|
D|-----14----------------------14------------------14------------|---------------------------------------------------------------|
A|---------------------------------------------------------------|---------------------------------------------------------------|
E|---------------------------------------------------------------|---------------------------------------------------------------|


    2   3   2   1   4   1   2   3       4   1   2   2   2   1   4   2   1   4   1   2   1   4   1   1   1   2   1   1   1   2   1
e|-------------12--17--12--------------17--12--------------12--17|---------17--------------17--------------15--------------15----|
B|-13------13--------------13------------------14------14--------|-15--------------15--------------14--------------14------------|
G|-----14----------------------14------------------14------------|-----14------14------14------14------14------14------14------14|
D|---------------------------------------------------------------|---------------------------------------------------------------|
A|---------------------------------------------------------------|---------------------------------------------------------------|
E|---------------------------------------------------------------|---------------------------------------------------------------|


    4       2   1   3   2   1   3   2   3   2   1   3   1   3   2   1   3   1   1   2   1   4   2   4   2   1   3   1   4   2   1
e|---------------------------------------------------------------|---------------------13----------------------------------------|
B|-18-------------------6---5-------------------5--10---8--------|-----------------15------17--15--17--15--14--------------------|
G|--------------2---7-----------7---6-------6--------------10---9|-10------10--14------------------------------16--14------------|
D|------0---3---------------------------7------------------------|-----12----------------------------------------------17--15--14|
A|---------------------------------------------------------------|---------------------------------------------------------------|
E|---------------------------------------------------------------|---------------------------------------------------------------|


    2   3   2   1   3   2   1   3   2   3   2   1   1   3   2   1   2   3   2   1   4   3   2   1   2   1   4   2   1   2   1   4
e|-------------------------------------------------17------------|-------------17--22--13--12--10--12--10------------------------|
B|---------------------18--17------------------17------20--18--17|-18------18------------------------------14--12--10------------|
G|-------------14--19----------19--18------18--------------------|-----19----------------------------------------------12--10----|
D|-15------15--------------------------19------------------------|-------------------------------------------------------------14|
A|-----17--------------------------------------------------------|---------------------------------------------------------------|
E|---------------------------------------------------------------|---------------------------------------------------------------|


    1   2   1   1   2   4   1   2   1   4   1   1   2   1   1   2   1&2                             4   1   1   2   4   2   1   2
e|---------------------------------------------------------------|---------------------------------13--10---9--10--12--10---9--10|
B|-----15--------------------------------------------------------|---------------------------------------------------------------|
G|-10------14--10------14--10----------10---7-----------7--------|---------------------------------------------------------------|
D|-----------------12----------12---7-----------7-----------7----|---------------------------------------------------------------|
A|--------------------------------------------------8-----------8|--8------------------------------------------------------------|
E|---------------------------------------------------------------|--6------------------------------------------------------------|


    1&4                             4   1   1   2   4   2   1   2   1&4                             4   1   2   1   4   2   1   1
e|---------------------------------------------------------------|---------------------------------19----------13----------------|
B|---------------------------------------------------------------|-------------------------------------15--17------17--15--13--12|
G|---------------------------------10---7---6---7---9---7---6---7|---------------------------------------------------------------|
D|---------------------------------------------------------------|---------------------------------------------------------------|
A|--7------------------------------------------------------------|--6------------------------------------------------------------|
E|--5------------------------------------------------------------|--4------------------------------------------------------------|


    2   1   4   1   4   2   1   4   2               1tr2            1       3       1       3       1       2       1       2
e|-----12--17--12--15--13--12------------------------------------|------0--12---0-------0--12---0-------0--10---0-------0--10---0|
B|-13--------------------------15--13--------------12tr13--------|-10--------------10---------------9---------------9------------|
G|---------------------------------------------------------------|---------------------------------------------------------------|
D|---------------------------------------------------------------|---------------------------------------------------------------|
A|---------------------------------------------------------------|---------------------------------------------------------------|
E|---------------------------------------------------------------|---------------------------------------------------------------|


    1       2       1       2       3   1   4   1   3   1   4   1   3   1   4   1   3   1   4   1   3   1   4   1   3   1   4   1
e|------0---9---0-------0---9---0----------17--------------17----|-----------------------------------------15--------------15----|
B|--8---------------8------------------13------13------13------13|-------------------------------------11------11------11------11|
G|---------------------------------------------------------------|---------16--------------16------------------------------------|
D|---------------------------------16--------------16------------|-15--12------12--15--12------12--14--------------14------------|
A|---------------------------------------------------------------|---------------------------------------------------------------|
E|---------------------------------------------------------------|---------------------------------------------------------------|


    3   1   4   1   3   1   4   1   1   2   4   2   1   2   4   2   3   3   2   1   4   1   2   3   1   2   3   3   4   1   3   1
e|-----------------------------------------17--------------17----|-------------12--17--12----------12--------------10---7--------|
B|---------------------------------------------------------------|---------13--------------13----------13-------------------9----|
G|---------14--------------14----------14------14------14------14|-----14----------------------14----------14---9---------------7|
D|-13--10------10--13--10------10--13--------------13------------|-14------------------------------------------------------------|
A|---------------------------------------------------------------|---------------------------------------------------------------|
E|---------------------------------------------------------------|---------------------------------------------------------------|


    4       2   1   1   4   3   1   1   2   1   1   1   4   2   1   2   4   2   1   3   2   1   1   3   1   1   3   1   4   2   1
e|---------------------------------------------------------------|---------------------------------------------------------------|
B|---------------------------------------------------------------|---------------------13--12--10--12--10---9--------------------|
G|--------------------------------------------------9------------|--------------9--14--------------------------11---9------------|
D|-10---------------7--10---9---7---6-------6---9------12--10---9|-10------10------------------------------------------12--10---9|
A|------0-------7-----------------------7------------------------|-----12--------------------------------------------------------|
E|----------8----------------------------------------------------|---------------------------------------------------------------|


    2   4   2   1   3   2   1   3   2   3   2   1   3   1   3   2   1   2   1   1   1   3   2   1   2   1   2   1   3   1   2   1
e|---------------------------------------------------------------|-----------------17--20--19--16--17--12------------------------|
B|---------------------13--12------------------12--17--15--------|-------------17--------------------------13--12----------------|
G|--------------9--14----------14--13------13--------------17--16|-17------17--------------------------------------14---9--------|
D|-10------10--------------------------14------------------------|-----19--------------------------------------------------10---9|
A|-----12--------------------------------------------------------|---------------------------------------------------------------|
E|---------------------------------------------------------------|---------------------------------------------------------------|


    1
e|---------------------------------------------------------------|
B|---------------------------------------------------------------|
G|---------------------------------------------------------------|
D|--7------------------------------------------------------------|
A|---------------------------------------------------------------|
E|---------------------------------------------------------------|

Back to Nick Jameson's homepage